ISO-10303-21;
HEADER;
FILE_DESCRIPTION (( 'STEP AP214' ),
    '1' );
FILE_NAME ('P-108-Placeholder 12V 100Ah.STEP',
    '2021-09-24T11:43:12',
    ( '' ),
    ( '' ),
    'SwSTEP 2.0',
    'SolidWorks 2021',
    '' );
FILE_SCHEMA (( 'AUTOMOTIVE_DESIGN' ));
ENDSEC;

DATA;
#1 = CARTESIAN_POINT ( 'NONE',  ( 165.0000000000000568, 230.0000000000000000, 84.99999999999998579 ) ) ;
#2 = AXIS2_PLACEMENT_3D ( 'NONE', #149, #182, #133 ) ;
#3 = DIRECTION ( 'NONE',  ( -0.000000000000000000, -0.000000000000000000, 1.000000000000000000 ) ) ;
#4 = DIRECTION ( 'NONE',  ( -0.000000000000000000, -0.000000000000000000, 1.000000000000000000 ) ) ;
#5 = VECTOR ( 'NONE', #116, 1000.000000000000000 ) ;
#6 = AXIS2_PLACEMENT_3D ( 'NONE', #210, #55, #122 ) ;
#7 = ORIENTED_EDGE ( 'NONE', *, *, #107, .F. ) ;
#8 =( NAMED_UNIT ( * ) SI_UNIT ( $, .STERADIAN. ) SOLID_ANGLE_UNIT ( ) );
#9 = ORIENTED_EDGE ( 'NONE', *, *, #30, .T. ) ;
#10 = AXIS2_PLACEMENT_3D ( 'NONE', #63, #183, #132 ) ;
#11 = ORIENTED_EDGE ( 'NONE', *, *, #123, .T. ) ;
#12 = SURFACE_STYLE_FILL_AREA ( #199 ) ;
#13 = EDGE_LOOP ( 'NONE', ( #11, #96, #111, #188 ) ) ;
#14 = CARTESIAN_POINT ( 'NONE',  ( 165.0000000000000568, 0.000000000000000000, -85.00000000000001421 ) ) ;
#15 = EDGE_LOOP ( 'NONE', ( #159, #171, #161, #201 ) ) ;
#16 = CARTESIAN_POINT ( 'NONE',  ( 165.0000000000000568, 230.0000000000000000, 84.99999999999998579 ) ) ;
#17 = CARTESIAN_POINT ( 'NONE',  ( -164.9999999999999432, 230.0000000000000000, 85.00000000000001421 ) ) ;
#18 = AXIS2_PLACEMENT_3D ( 'NONE', #196, #160, #56 ) ;
#19 = EDGE_CURVE ( 'NONE', #113, #27, #166, .T. ) ;
#20 = LINE ( 'NONE', #16, #209 ) ;
#21 = DIRECTION ( 'NONE',  ( 0.000000000000000000, 0.000000000000000000, 1.000000000000000000 ) ) ;
#22 = FACE_OUTER_BOUND ( 'NONE', #146, .T. ) ;
#23 = UNCERTAINTY_MEASURE_WITH_UNIT (LENGTH_MEASURE( 1.000000000000000082E-05 ), #128, 'distance_accuracy_value', 'NONE');
#24 = SURFACE_STYLE_USAGE ( .BOTH. , #143 ) ;
#25 = FILL_AREA_STYLE_COLOUR ( '', #156 ) ;
#26 = STYLED_ITEM ( 'NONE', ( #31 ), #73 ) ;
#27 = VERTEX_POINT ( 'NONE', #145 ) ;
#28 = CARTESIAN_POINT ( 'NONE',  ( 0.000000000000000000, 0.000000000000000000, 0.000000000000000000 ) ) ;
#29 = ORIENTED_EDGE ( 'NONE', *, *, #147, .T. ) ;
#30 = EDGE_CURVE ( 'NONE', #208, #38, #76, .T. ) ;
#31 = PRESENTATION_STYLE_ASSIGNMENT (( #66 ) ) ;
#32 = VECTOR ( 'NONE', #3, 1000.000000000000000 ) ;
#33 = SURFACE_STYLE_USAGE ( .BOTH. , #151 ) ;
#34 =( LENGTH_UNIT ( ) NAMED_UNIT ( * ) SI_UNIT ( .MILLI., .METRE. ) );
#35 = DIRECTION ( 'NONE',  ( 1.000000000000000000, -0.000000000000000000, 0.000000000000000000 ) ) ;
#36 = PRODUCT ( 'P-108-Placeholder 12V 100Ah', 'P-108-Placeholder 12V 100Ah', '', ( #108 ) ) ;
#37 = CARTESIAN_POINT ( 'NONE',  ( -164.9999999999999432, 0.000000000000000000, 85.00000000000001421 ) ) ;
#38 = VERTEX_POINT ( 'NONE', #141 ) ;
#39 = VECTOR ( 'NONE', #41, 1000.000000000000000 ) ;
#40 =( NAMED_UNIT ( * ) PLANE_ANGLE_UNIT ( ) SI_UNIT ( $, .RADIAN. ) );
#41 = DIRECTION ( 'NONE',  ( -1.000000000000000000, 0.000000000000000000, 8.410780489584519171E-17 ) ) ;
#42 = DIRECTION ( 'NONE',  ( -0.000000000000000000, -1.000000000000000000, -0.000000000000000000 ) ) ;
#43 = ORIENTED_EDGE ( 'NONE', *, *, #30, .F. ) ;
#44 = SURFACE_STYLE_FILL_AREA ( #180 ) ;
#45 = EDGE_CURVE ( 'NONE', #38, #214, #215, .T. ) ;
#46 = VERTEX_POINT ( 'NONE', #64 ) ;
#47 = CARTESIAN_POINT ( 'NONE',  ( 165.0000000000000568, 0.000000000000000000, 84.99999999999998579 ) ) ;
#48 = CARTESIAN_POINT ( 'NONE',  ( 165.0000000000000568, 0.000000000000000000, 84.99999999999998579 ) ) ;
#49 = LINE ( 'NONE', #47, #150 ) ;
#50 = FACE_OUTER_BOUND ( 'NONE', #15, .T. ) ;
#51 = ADVANCED_BREP_SHAPE_REPRESENTATION ( 'P-108-Placeholder 12V 100Ah', ( #121, #198 ), #172 ) ;
#52 = ORIENTED_EDGE ( 'NONE', *, *, #204, .F. ) ;
#53 = CARTESIAN_POINT ( 'NONE',  ( 165.0000000000000568, 230.0000000000000000, 84.99999999999998579 ) ) ;
#54 = STYLED_ITEM ( 'NONE', ( #103 ), #121 ) ;
#55 = DIRECTION ( 'NONE',  ( -8.410780489584519171E-17, 0.000000000000000000, -1.000000000000000000 ) ) ;
#56 = DIRECTION ( 'NONE',  ( 0.000000000000000000, -0.000000000000000000, 1.000000000000000000 ) ) ;
#57 = ORIENTED_EDGE ( 'NONE', *, *, #193, .T. ) ;
#58 = CARTESIAN_POINT ( 'NONE',  ( -164.9999999999999432, 0.000000000000000000, -84.99999999999998579 ) ) ;
#59 = PRODUCT_DEFINITION_FORMATION_WITH_SPECIFIED_SOURCE ( 'ANY', '', #36, .NOT_KNOWN. ) ;
#60 = ORIENTED_EDGE ( 'NONE', *, *, #45, .F. ) ;
#61 = ORIENTED_EDGE ( 'NONE', *, *, #154, .F. ) ;
#62 = CARTESIAN_POINT ( 'NONE',  ( 165.0000000000000568, 230.0000000000000000, 84.99999999999998579 ) ) ;
#63 = CARTESIAN_POINT ( 'NONE',  ( 165.0000000000000568, 230.0000000000000000, -85.00000000000001421 ) ) ;
#64 = CARTESIAN_POINT ( 'NONE',  ( 165.0000000000000568, 0.000000000000000000, -85.00000000000001421 ) ) ;
#65 = PRODUCT_DEFINITION ( 'UNKNOWN', '', #59, #74 ) ;
#66 = SURFACE_STYLE_USAGE ( .BOTH. , #197 ) ;
#67 = PLANE ( 'NONE',  #68 ) ;
#68 = AXIS2_PLACEMENT_3D ( 'NONE', #70, #35, #148 ) ;
#69 = PLANE ( 'NONE',  #153 ) ;
#70 = CARTESIAN_POINT ( 'NONE',  ( -164.9999999999999432, 230.0000000000000000, 85.00000000000001421 ) ) ;
#71 = DIRECTION ( 'NONE',  ( 1.000000000000000000, -0.000000000000000000, -8.410780489584519171E-17 ) ) ;
#72 = COLOUR_RGB ( '',0.2000000000000000111, 0.2000000000000000111, 0.2000000000000000111 ) ;
#73 = ADVANCED_FACE ( 'NONE', ( #130 ), #194, .F. ) ;
#74 = PRODUCT_DEFINITION_CONTEXT ( 'detailed design', #118, 'design' ) ;
#75 = PRESENTATION_STYLE_ASSIGNMENT (( #24 ) ) ;
#76 = LINE ( 'NONE', #217, #5 ) ;
#77 = DIRECTION ( 'NONE',  ( 0.000000000000000000, 0.000000000000000000, 1.000000000000000000 ) ) ;
#78 =( NAMED_UNIT ( * ) SI_UNIT ( $, .STERADIAN. ) SOLID_ANGLE_UNIT ( ) );
#79 = ORIENTED_EDGE ( 'NONE', *, *, #107, .T. ) ;
#80 = CARTESIAN_POINT ( 'NONE',  ( -164.9999999999999432, 230.0000000000000000, 85.00000000000001421 ) ) ;
#81 = ORIENTED_EDGE ( 'NONE', *, *, #138, .T. ) ;
#82 = LINE ( 'NONE', #37, #32 ) ;
#83 = VECTOR ( 'NONE', #144, 1000.000000000000000 ) ;
#84 = FILL_AREA_STYLE ('',( #184 ) ) ;
#85 = ADVANCED_FACE ( 'NONE', ( #168 ), #99, .T. ) ;
#86 = LINE ( 'NONE', #17, #176 ) ;
#87 = PRODUCT_DEFINITION_SHAPE ( 'NONE', 'NONE',  #65 ) ;
#88 = CARTESIAN_POINT ( 'NONE',  ( 165.0000000000000568, 0.000000000000000000, 84.99999999999998579 ) ) ;
#89 = PLANE ( 'NONE',  #6 ) ;
#90 = UNCERTAINTY_MEASURE_WITH_UNIT (LENGTH_MEASURE( 1.000000000000000082E-05 ), #34, 'distance_accuracy_value', 'NONE');
#91 = ORIENTED_EDGE ( 'NONE', *, *, #154, .T. ) ;
#92 = DIRECTION ( 'NONE',  ( 1.000000000000000000, 0.000000000000000000, 0.000000000000000000 ) ) ;
#93 =( NAMED_UNIT ( * ) PLANE_ANGLE_UNIT ( ) SI_UNIT ( $, .RADIAN. ) );
#94 = DIRECTION ( 'NONE',  ( -0.000000000000000000, -1.000000000000000000, -0.000000000000000000 ) ) ;
#95 =( GEOMETRIC_REPRESENTATION_CONTEXT ( 3 ) GLOBAL_UNCERTAINTY_ASSIGNED_CONTEXT ( ( #190 ) ) GLOBAL_UNIT_ASSIGNED_CONTEXT ( ( #109, #93, #78 ) ) REPRESENTATION_CONTEXT ( 'NONE', 'WORKASPACE' ) );
#96 = ORIENTED_EDGE ( 'NONE', *, *, #19, .F. ) ;
#97 = PRESENTATION_LAYER_ASSIGNMENT (  '', '', ( #26 ) ) ;
#98 =( NAMED_UNIT ( * ) PLANE_ANGLE_UNIT ( ) SI_UNIT ( $, .RADIAN. ) );
#99 = PLANE ( 'NONE',  #2 ) ;
#100 = COLOUR_RGB ( '',0.1019607843137254888, 0.1019607843137254888, 0.1019607843137254888 ) ;
#101 = ADVANCED_FACE ( 'NONE', ( #135 ), #67, .F. ) ;
#102 =( NAMED_UNIT ( * ) SI_UNIT ( $, .STERADIAN. ) SOLID_ANGLE_UNIT ( ) );
#103 = PRESENTATION_STYLE_ASSIGNMENT (( #33 ) ) ;
#104 = ORIENTED_EDGE ( 'NONE', *, *, #206, .F. ) ;
#105 = DIRECTION ( 'NONE',  ( -1.000000000000000000, 0.000000000000000000, 0.000000000000000000 ) ) ;
#106 = FACE_OUTER_BOUND ( 'NONE', #127, .T. ) ;
#107 = EDGE_CURVE ( 'NONE', #27, #177, #49, .T. ) ;
#108 = PRODUCT_CONTEXT ( 'NONE', #181, 'mechanical' ) ;
#109 =( LENGTH_UNIT ( ) NAMED_UNIT ( * ) SI_UNIT ( .MILLI., .METRE. ) );
#110 = LINE ( 'NONE', #173, #137 ) ;
#111 = ORIENTED_EDGE ( 'NONE', *, *, #147, .F. ) ;
#112 = VECTOR ( 'NONE', #71, 1000.000000000000000 ) ;
#113 = VERTEX_POINT ( 'NONE', #207 ) ;
#114 =( LENGTH_UNIT ( ) NAMED_UNIT ( * ) SI_UNIT ( .MILLI., .METRE. ) );
#115 = VERTEX_POINT ( 'NONE', #1 ) ;
#116 = DIRECTION ( 'NONE',  ( -1.000000000000000000, 0.000000000000000000, 8.410780489584519171E-17 ) ) ;
#117 = CARTESIAN_POINT ( 'NONE',  ( 165.0000000000000568, 230.0000000000000000, 84.99999999999998579 ) ) ;
#118 = APPLICATION_CONTEXT ( 'automotive_design' ) ;
#119 = VECTOR ( 'NONE', #94, 1000.000000000000000 ) ;
#120 = MECHANICAL_DESIGN_GEOMETRIC_PRESENTATION_REPRESENTATION (  '', ( #54 ), #131 ) ;
#121 = MANIFOLD_SOLID_BREP ( 'Boss-Extrude1', #155 ) ;
#122 = DIRECTION ( 'NONE',  ( -1.000000000000000000, 0.000000000000000000, 8.410780489584519171E-17 ) ) ;
#123 = EDGE_CURVE ( 'NONE', #214, #27, #82, .T. ) ;
#124 = LINE ( 'NONE', #14, #39 ) ;
#125 = VECTOR ( 'NONE', #169, 1000.000000000000000 ) ;
#126 = DIRECTION ( 'NONE',  ( -0.000000000000000000, -1.000000000000000000, -0.000000000000000000 ) ) ;
#127 = EDGE_LOOP ( 'NONE', ( #165, #52, #179, #7 ) ) ;
#128 =( LENGTH_UNIT ( ) NAMED_UNIT ( * ) SI_UNIT ( .MILLI., .METRE. ) );
#129 = MECHANICAL_DESIGN_GEOMETRIC_PRESENTATION_REPRESENTATION (  '', ( #167 ), #192 ) ;
#130 = FACE_OUTER_BOUND ( 'NONE', #216, .T. ) ;
#131 =( GEOMETRIC_REPRESENTATION_CONTEXT ( 3 ) GLOBAL_UNCERTAINTY_ASSIGNED_CONTEXT ( ( #90 ) ) GLOBAL_UNIT_ASSIGNED_CONTEXT ( ( #34, #98, #102 ) ) REPRESENTATION_CONTEXT ( 'NONE', 'WORKASPACE' ) );
#132 = DIRECTION ( 'NONE',  ( 1.000000000000000000, 0.000000000000000000, -8.410780489584519171E-17 ) ) ;
#133 = DIRECTION ( 'NONE',  ( 0.000000000000000000, -0.000000000000000000, 1.000000000000000000 ) ) ;
#134 = DIRECTION ( 'NONE',  ( 1.000000000000000000, -0.000000000000000000, -8.410780489584519171E-17 ) ) ;
#135 = FACE_OUTER_BOUND ( 'NONE', #13, .T. ) ;
#136 = PRESENTATION_LAYER_ASSIGNMENT (  '', '', ( #54 ) ) ;
#137 = VECTOR ( 'NONE', #42, 1000.000000000000000 ) ;
#138 = EDGE_CURVE ( 'NONE', #115, #208, #20, .T. ) ;
#139 =( NAMED_UNIT ( * ) PLANE_ANGLE_UNIT ( ) SI_UNIT ( $, .RADIAN. ) );
#140 = EDGE_LOOP ( 'NONE', ( #29, #91, #81, #9 ) ) ;
#141 = CARTESIAN_POINT ( 'NONE',  ( -164.9999999999999432, 230.0000000000000000, -84.99999999999998579 ) ) ;
#142 = EDGE_CURVE ( 'NONE', #177, #46, #186, .T. ) ;
#143 = SURFACE_SIDE_STYLE ('',( #12 ) ) ;
#144 = DIRECTION ( 'NONE',  ( -0.000000000000000000, -1.000000000000000000, -0.000000000000000000 ) ) ;
#145 = CARTESIAN_POINT ( 'NONE',  ( -164.9999999999999432, 0.000000000000000000, 85.00000000000001421 ) ) ;
#146 = EDGE_LOOP ( 'NONE', ( #79, #104, #61, #195 ) ) ;
#147 = EDGE_CURVE ( 'NONE', #38, #113, #86, .T. ) ;
#148 = DIRECTION ( 'NONE',  ( 0.000000000000000000, 0.000000000000000000, -1.000000000000000000 ) ) ;
#149 = CARTESIAN_POINT ( 'NONE',  ( 0.000000000000000000, 230.0000000000000000, 0.000000000000000000 ) ) ;
#150 = VECTOR ( 'NONE', #134, 1000.000000000000000 ) ;
#151 = SURFACE_SIDE_STYLE ('',( #202 ) ) ;
#152 = LINE ( 'NONE', #117, #112 ) ;
#153 = AXIS2_PLACEMENT_3D ( 'NONE', #53, #105, #21 ) ;
#154 = EDGE_CURVE ( 'NONE', #113, #115, #152, .T. ) ;
#155 = CLOSED_SHELL ( 'NONE', ( #101, #178, #164, #73, #85, #185 ) ) ;
#156 = COLOUR_RGB ( '',0.1019607843137254888, 0.1019607843137254888, 0.1019607843137254888 ) ;
#157 = MECHANICAL_DESIGN_GEOMETRIC_PRESENTATION_REPRESENTATION (  '', ( #26 ), #95 ) ;
#158 =( NAMED_UNIT ( * ) SI_UNIT ( $, .STERADIAN. ) SOLID_ANGLE_UNIT ( ) );
#159 = ORIENTED_EDGE ( 'NONE', *, *, #142, .T. ) ;
#160 = DIRECTION ( 'NONE',  ( 0.000000000000000000, 1.000000000000000000, 0.000000000000000000 ) ) ;
#161 = ORIENTED_EDGE ( 'NONE', *, *, #138, .F. ) ;
#162 = PRODUCT_RELATED_PRODUCT_CATEGORY ( 'part', '', ( #36 ) ) ;
#163 = LINE ( 'NONE', #62, #119 ) ;
#164 = ADVANCED_FACE ( 'NONE', ( #50 ), #69, .F. ) ;
#165 = ORIENTED_EDGE ( 'NONE', *, *, #123, .F. ) ;
#166 = LINE ( 'NONE', #80, #83 ) ;
#167 = STYLED_ITEM ( 'NONE', ( #75 ), #51 ) ;
#168 = FACE_OUTER_BOUND ( 'NONE', #140, .T. ) ;
#169 = DIRECTION ( 'NONE',  ( 0.000000000000000000, 0.000000000000000000, -1.000000000000000000 ) ) ;
#170 = PRESENTATION_LAYER_ASSIGNMENT (  '', '', ( #167 ) ) ;
#171 = ORIENTED_EDGE ( 'NONE', *, *, #193, .F. ) ;
#172 =( GEOMETRIC_REPRESENTATION_CONTEXT ( 3 ) GLOBAL_UNCERTAINTY_ASSIGNED_CONTEXT ( ( #187 ) ) GLOBAL_UNIT_ASSIGNED_CONTEXT ( ( #114, #40, #158 ) ) REPRESENTATION_CONTEXT ( 'NONE', 'WORKASPACE' ) );
#173 = CARTESIAN_POINT ( 'NONE',  ( 165.0000000000000568, 230.0000000000000000, -85.00000000000001421 ) ) ;
#174 = APPLICATION_PROTOCOL_DEFINITION ( 'draft international standard', 'automotive_design', 1998, #118 ) ;
#175 = CARTESIAN_POINT ( 'NONE',  ( -164.9999999999999432, 230.0000000000000000, -84.99999999999998579 ) ) ;
#176 = VECTOR ( 'NONE', #4, 1000.000000000000000 ) ;
#177 = VERTEX_POINT ( 'NONE', #88 ) ;
#178 = ADVANCED_FACE ( 'NONE', ( #22 ), #89, .F. ) ;
#179 = ORIENTED_EDGE ( 'NONE', *, *, #142, .F. ) ;
#180 = FILL_AREA_STYLE ('',( #200 ) ) ;
#181 = APPLICATION_CONTEXT ( 'automotive_design' ) ;
#182 = DIRECTION ( 'NONE',  ( 0.000000000000000000, 1.000000000000000000, 0.000000000000000000 ) ) ;
#183 = DIRECTION ( 'NONE',  ( 8.410780489584519171E-17, -0.000000000000000000, 1.000000000000000000 ) ) ;
#184 = FILL_AREA_STYLE_COLOUR ( '', #100 ) ;
#185 = ADVANCED_FACE ( 'NONE', ( #106 ), #189, .F. ) ;
#186 = LINE ( 'NONE', #48, #125 ) ;
#187 = UNCERTAINTY_MEASURE_WITH_UNIT (LENGTH_MEASURE( 1.000000000000000082E-05 ), #114, 'distance_accuracy_value', 'NONE');
#188 = ORIENTED_EDGE ( 'NONE', *, *, #45, .T. ) ;
#189 = PLANE ( 'NONE',  #18 ) ;
#190 = UNCERTAINTY_MEASURE_WITH_UNIT (LENGTH_MEASURE( 1.000000000000000082E-05 ), #109, 'distance_accuracy_value', 'NONE');
#191 = CARTESIAN_POINT ( 'NONE',  ( 165.0000000000000568, 230.0000000000000000, -85.00000000000001421 ) ) ;
#192 =( GEOMETRIC_REPRESENTATION_CONTEXT ( 3 ) GLOBAL_UNCERTAINTY_ASSIGNED_CONTEXT ( ( #23 ) ) GLOBAL_UNIT_ASSIGNED_CONTEXT ( ( #128, #139, #8 ) ) REPRESENTATION_CONTEXT ( 'NONE', 'WORKASPACE' ) );
#193 = EDGE_CURVE ( 'NONE', #208, #46, #110, .T. ) ;
#194 = PLANE ( 'NONE',  #10 ) ;
#195 = ORIENTED_EDGE ( 'NONE', *, *, #19, .T. ) ;
#196 = CARTESIAN_POINT ( 'NONE',  ( 0.000000000000000000, 0.000000000000000000, 0.000000000000000000 ) ) ;
#197 = SURFACE_SIDE_STYLE ('',( #44 ) ) ;
#198 = AXIS2_PLACEMENT_3D ( 'NONE', #28, #77, #92 ) ;
#199 = FILL_AREA_STYLE ('',( #25 ) ) ;
#200 = FILL_AREA_STYLE_COLOUR ( '', #72 ) ;
#201 = ORIENTED_EDGE ( 'NONE', *, *, #206, .T. ) ;
#202 = SURFACE_STYLE_FILL_AREA ( #84 ) ;
#203 = VECTOR ( 'NONE', #126, 1000.000000000000000 ) ;
#204 = EDGE_CURVE ( 'NONE', #46, #214, #124, .T. ) ;
#205 = DIRECTION ( 'NONE',  ( 0.000000000000000000, 0.000000000000000000, -1.000000000000000000 ) ) ;
#206 = EDGE_CURVE ( 'NONE', #115, #177, #163, .T. ) ;
#207 = CARTESIAN_POINT ( 'NONE',  ( -164.9999999999999432, 230.0000000000000000, 85.00000000000001421 ) ) ;
#208 = VERTEX_POINT ( 'NONE', #191 ) ;
#209 = VECTOR ( 'NONE', #205, 1000.000000000000000 ) ;
#210 = CARTESIAN_POINT ( 'NONE',  ( 165.0000000000000568, 230.0000000000000000, 84.99999999999998579 ) ) ;
#211 = SHAPE_DEFINITION_REPRESENTATION ( #87, #51 ) ;
#212 = ORIENTED_EDGE ( 'NONE', *, *, #204, .T. ) ;
#213 = APPLICATION_PROTOCOL_DEFINITION ( 'draft international standard', 'automotive_design', 1998, #181 ) ;
#214 = VERTEX_POINT ( 'NONE', #58 ) ;
#215 = LINE ( 'NONE', #175, #203 ) ;
#216 = EDGE_LOOP ( 'NONE', ( #212, #60, #43, #57 ) ) ;
#217 = CARTESIAN_POINT ( 'NONE',  ( 165.0000000000000568, 230.0000000000000000, -85.00000000000001421 ) ) ;
ENDSEC;
END-ISO-10303-21;
